ISO-10303-21;
HEADER;
/* Generated by software containing ST-Developer
 * from STEP Tools, Inc. (www.steptools.com) 
 */

FILE_DESCRIPTION(
/* description */ (''),
/* implementation_level */ '2;1');

FILE_NAME(
/* name */ 
'\\\\ANTALSBS2K8\\Catalogo Antal\\CD\\Contenuto\\Antal - CAD library\\
3D - STP\\4 - T track sliders\\691.341-B.stp',
/* time_stamp */ '2015-10-08T10:48:02+02:00',
/* author */ ('carmine'),
/* organization */ (''),
/* preprocessor_version */ 'ST-DEVELOPER v15.2',
/* originating_system */ 'Autodesk Inventor 2014',
/* authorisation */ '');

FILE_SCHEMA (('AUTOMOTIVE_DESIGN { 1 0 10303 214 3 1 1 }'));
ENDSEC;

DATA;
#10=SHAPE_REPRESENTATION_RELATIONSHIP('SRR','None',#716,#11);
#11=ADVANCED_BREP_SHAPE_REPRESENTATION($,(#409),#707);
#12=STYLED_ITEM($,(#724),#409);
#13=SPHERICAL_SURFACE($,#431,8.);
#14=SPHERICAL_SURFACE($,#433,8.);
#15=CONICAL_SURFACE($,#426,6.,45.);
#16=FACE_BOUND($,#62,.T.);
#17=FACE_BOUND($,#64,.T.);
#18=FACE_BOUND($,#77,.T.);
#19=FACE_BOUND($,#78,.T.);
#20=FACE_BOUND($,#80,.T.);
#21=FACE_BOUND($,#82,.T.);
#22=FACE_BOUND($,#83,.T.);
#23=PLANE($,#413);
#24=PLANE($,#420);
#25=PLANE($,#437);
#26=PLANE($,#440);
#27=PLANE($,#441);
#28=PLANE($,#445);
#29=PLANE($,#449);
#30=PLANE($,#450);
#31=PLANE($,#453);
#32=PLANE($,#454);
#33=FACE_OUTER_BOUND($,#55,.T.);
#34=FACE_OUTER_BOUND($,#56,.T.);
#35=FACE_OUTER_BOUND($,#57,.T.);
#36=FACE_OUTER_BOUND($,#58,.T.);
#37=FACE_OUTER_BOUND($,#59,.T.);
#38=FACE_OUTER_BOUND($,#60,.T.);
#39=FACE_OUTER_BOUND($,#61,.T.);
#40=FACE_OUTER_BOUND($,#63,.T.);
#41=FACE_OUTER_BOUND($,#65,.T.);
#42=FACE_OUTER_BOUND($,#66,.T.);
#43=FACE_OUTER_BOUND($,#67,.T.);
#44=FACE_OUTER_BOUND($,#68,.T.);
#45=FACE_OUTER_BOUND($,#69,.T.);
#46=FACE_OUTER_BOUND($,#70,.T.);
#47=FACE_OUTER_BOUND($,#71,.T.);
#48=FACE_OUTER_BOUND($,#72,.T.);
#49=FACE_OUTER_BOUND($,#73,.T.);
#50=FACE_OUTER_BOUND($,#74,.T.);
#51=FACE_OUTER_BOUND($,#75,.T.);
#52=FACE_OUTER_BOUND($,#76,.T.);
#53=FACE_OUTER_BOUND($,#79,.T.);
#54=FACE_OUTER_BOUND($,#81,.T.);
#55=EDGE_LOOP($,(#263,#264,#265,#266));
#56=EDGE_LOOP($,(#267,#268,#269,#270,#271,#272,#273,#274,#275,#276));
#57=EDGE_LOOP($,(#277,#278,#279,#280,#281));
#58=EDGE_LOOP($,(#282,#283,#284,#285));
#59=EDGE_LOOP($,(#286,#287,#288,#289));
#60=EDGE_LOOP($,(#290,#291,#292,#293,#294));
#61=EDGE_LOOP($,(#295));
#62=EDGE_LOOP($,(#296));
#63=EDGE_LOOP($,(#297));
#64=EDGE_LOOP($,(#298));
#65=EDGE_LOOP($,(#299,#300,#301,#302));
#66=EDGE_LOOP($,(#303,#304,#305));
#67=EDGE_LOOP($,(#306,#307,#308));
#68=EDGE_LOOP($,(#309,#310,#311,#312));
#69=EDGE_LOOP($,(#313,#314,#315,#316));
#70=EDGE_LOOP($,(#317,#318,#319,#320));
#71=EDGE_LOOP($,(#321,#322,#323,#324));
#72=EDGE_LOOP($,(#325,#326,#327,#328));
#73=EDGE_LOOP($,(#329,#330,#331,#332));
#74=EDGE_LOOP($,(#333,#334,#335,#336));
#75=EDGE_LOOP($,(#337,#338,#339,#340));
#76=EDGE_LOOP($,(#341,#342,#343,#344));
#77=EDGE_LOOP($,(#345));
#78=EDGE_LOOP($,(#346,#347,#348,#349,#350,#351));
#79=EDGE_LOOP($,(#352));
#80=EDGE_LOOP($,(#353));
#81=EDGE_LOOP($,(#354,#355,#356,#357,#358,#359,#360,#361,#362,#363,#364,
#365,#366,#367));
#82=EDGE_LOOP($,(#368));
#83=EDGE_LOOP($,(#369,#370,#371,#372));
#84=CIRCLE($,#412,1.);
#85=CIRCLE($,#414,8.);
#86=CIRCLE($,#415,8.);
#87=CIRCLE($,#417,8.);
#88=CIRCLE($,#419,1.);
#89=CIRCLE($,#422,8.);
#90=CIRCLE($,#424,6.);
#91=CIRCLE($,#425,6.);
#92=CIRCLE($,#427,3.125);
#93=CIRCLE($,#429,8.);
#94=CIRCLE($,#430,8.);
#95=CIRCLE($,#432,8.);
#96=CIRCLE($,#434,8.);
#97=CIRCLE($,#436,8.);
#98=CIRCLE($,#439,8.);
#99=CIRCLE($,#443,5.);
#100=CIRCLE($,#444,5.);
#101=CIRCLE($,#447,5.);
#102=CIRCLE($,#448,5.);
#103=CIRCLE($,#451,3.125);
#104=LINE($,#591,#137);
#105=LINE($,#594,#138);
#106=LINE($,#599,#139);
#107=LINE($,#603,#140);
#108=LINE($,#605,#141);
#109=LINE($,#607,#142);
#110=LINE($,#609,#143);
#111=LINE($,#611,#144);
#112=LINE($,#612,#145);
#113=LINE($,#615,#146);
#114=LINE($,#618,#147);
#115=LINE($,#628,#148);
#116=LINE($,#632,#149);
#117=LINE($,#634,#150);
#118=LINE($,#635,#151);
#119=LINE($,#638,#152);
#120=LINE($,#651,#153);
#121=LINE($,#654,#154);
#122=LINE($,#661,#155);
#123=LINE($,#665,#156);
#124=LINE($,#666,#157);
#125=LINE($,#669,#158);
#126=LINE($,#672,#159);
#127=LINE($,#675,#160);
#128=LINE($,#677,#161);
#129=LINE($,#678,#162);
#130=LINE($,#684,#163);
#131=LINE($,#687,#164);
#132=LINE($,#689,#165);
#133=LINE($,#690,#166);
#134=LINE($,#696,#167);
#135=LINE($,#698,#168);
#136=LINE($,#699,#169);
#137=VECTOR($,#459,20.3729833462074);
#138=VECTOR($,#462,16.5);
#139=VECTOR($,#467,31.);
#140=VECTOR($,#470,20.3729833462074);
#141=VECTOR($,#471,2.25);
#142=VECTOR($,#472,18.);
#143=VECTOR($,#473,40.5);
#144=VECTOR($,#474,18.);
#145=VECTOR($,#475,2.25);
#146=VECTOR($,#478,20.6);
#147=VECTOR($,#481,21.6);
#148=VECTOR($,#484,16.5);
#149=VECTOR($,#489,20.6);
#150=VECTOR($,#490,16.5);
#151=VECTOR($,#491,20.6);
#152=VECTOR($,#494,21.6);
#153=VECTOR($,#511,31.);
#154=VECTOR($,#514,31.);
#155=VECTOR($,#525,16.5);
#156=VECTOR($,#530,16.5);
#157=VECTOR($,#531,31.);
#158=VECTOR($,#534,16.5);
#159=VECTOR($,#539,20.6);
#160=VECTOR($,#542,21.3);
#161=VECTOR($,#543,21.3);
#162=VECTOR($,#544,18.);
#163=VECTOR($,#551,18.);
#164=VECTOR($,#554,30.5);
#165=VECTOR($,#555,30.5);
#166=VECTOR($,#556,18.);
#167=VECTOR($,#563,18.);
#168=VECTOR($,#566,21.3);
#169=VECTOR($,#567,21.3);
#170=B_SPLINE_CURVE_WITH_KNOTS($,3,(#582,#583,#584,#585,#586,#587,#588,
#589),.UNSPECIFIED.,.F.,.F.,(4,2,2,4),(0.,0.107376827463078,0.214753654926155,
0.39372707672149),.UNSPECIFIED.);
#171=B_SPLINE_CURVE_WITH_KNOTS($,3,(#621,#622,#623,#624,#625,#626),
 .UNSPECIFIED.,.F.,.F.,(4,2,4),(0.824405506925267,1.02401792104044,1.22363033515562),
 .UNSPECIFIED.);
#172=VERTEX_POINT($,#580);
#173=VERTEX_POINT($,#581);
#174=VERTEX_POINT($,#590);
#175=VERTEX_POINT($,#592);
#176=VERTEX_POINT($,#596);
#177=VERTEX_POINT($,#598);
#178=VERTEX_POINT($,#600);
#179=VERTEX_POINT($,#602);
#180=VERTEX_POINT($,#604);
#181=VERTEX_POINT($,#606);
#182=VERTEX_POINT($,#608);
#183=VERTEX_POINT($,#610);
#184=VERTEX_POINT($,#614);
#185=VERTEX_POINT($,#616);
#186=VERTEX_POINT($,#620);
#187=VERTEX_POINT($,#627);
#188=VERTEX_POINT($,#631);
#189=VERTEX_POINT($,#633);
#190=VERTEX_POINT($,#637);
#191=VERTEX_POINT($,#641);
#192=VERTEX_POINT($,#643);
#193=VERTEX_POINT($,#646);
#194=VERTEX_POINT($,#649);
#195=VERTEX_POINT($,#652);
#196=VERTEX_POINT($,#660);
#197=VERTEX_POINT($,#664);
#198=VERTEX_POINT($,#668);
#199=VERTEX_POINT($,#674);
#200=VERTEX_POINT($,#676);
#201=VERTEX_POINT($,#680);
#202=VERTEX_POINT($,#682);
#203=VERTEX_POINT($,#686);
#204=VERTEX_POINT($,#688);
#205=VERTEX_POINT($,#692);
#206=VERTEX_POINT($,#694);
#207=VERTEX_POINT($,#701);
#208=EDGE_CURVE($,#172,#173,#170,.T.);
#209=EDGE_CURVE($,#173,#174,#104,.T.);
#210=EDGE_CURVE($,#174,#175,#84,.T.);
#211=EDGE_CURVE($,#175,#172,#105,.T.);
#212=EDGE_CURVE($,#176,#173,#85,.T.);
#213=EDGE_CURVE($,#176,#177,#106,.T.);
#214=EDGE_CURVE($,#178,#177,#86,.T.);
#215=EDGE_CURVE($,#179,#178,#107,.T.);
#216=EDGE_CURVE($,#179,#180,#108,.T.);
#217=EDGE_CURVE($,#180,#181,#109,.T.);
#218=EDGE_CURVE($,#181,#182,#110,.T.);
#219=EDGE_CURVE($,#182,#183,#111,.T.);
#220=EDGE_CURVE($,#183,#174,#112,.T.);
#221=EDGE_CURVE($,#172,#184,#113,.T.);
#222=EDGE_CURVE($,#184,#185,#87,.T.);
#223=EDGE_CURVE($,#185,#176,#114,.T.);
#224=EDGE_CURVE($,#178,#186,#171,.T.);
#225=EDGE_CURVE($,#186,#187,#115,.T.);
#226=EDGE_CURVE($,#187,#179,#88,.T.);
#227=EDGE_CURVE($,#188,#186,#116,.T.);
#228=EDGE_CURVE($,#189,#188,#117,.T.);
#229=EDGE_CURVE($,#189,#187,#118,.T.);
#230=EDGE_CURVE($,#177,#190,#119,.T.);
#231=EDGE_CURVE($,#190,#188,#89,.T.);
#232=EDGE_CURVE($,#191,#191,#90,.T.);
#233=EDGE_CURVE($,#192,#192,#91,.T.);
#234=EDGE_CURVE($,#193,#193,#92,.T.);
#235=EDGE_CURVE($,#194,#190,#93,.T.);
#236=EDGE_CURVE($,#190,#185,#120,.T.);
#237=EDGE_CURVE($,#185,#195,#94,.T.);
#238=EDGE_CURVE($,#195,#194,#121,.T.);
#239=EDGE_CURVE($,#194,#188,#95,.T.);
#240=EDGE_CURVE($,#184,#195,#96,.T.);
#241=EDGE_CURVE($,#196,#194,#122,.T.);
#242=EDGE_CURVE($,#196,#189,#97,.T.);
#243=EDGE_CURVE($,#197,#195,#123,.T.);
#244=EDGE_CURVE($,#197,#196,#124,.T.);
#245=EDGE_CURVE($,#198,#184,#125,.T.);
#246=EDGE_CURVE($,#198,#197,#98,.T.);
#247=EDGE_CURVE($,#175,#198,#126,.T.);
#248=EDGE_CURVE($,#181,#199,#127,.T.);
#249=EDGE_CURVE($,#200,#180,#128,.T.);
#250=EDGE_CURVE($,#200,#199,#129,.T.);
#251=EDGE_CURVE($,#199,#201,#99,.T.);
#252=EDGE_CURVE($,#202,#200,#100,.T.);
#253=EDGE_CURVE($,#202,#201,#130,.T.);
#254=EDGE_CURVE($,#201,#203,#131,.T.);
#255=EDGE_CURVE($,#204,#202,#132,.T.);
#256=EDGE_CURVE($,#204,#203,#133,.T.);
#257=EDGE_CURVE($,#203,#205,#101,.T.);
#258=EDGE_CURVE($,#206,#204,#102,.T.);
#259=EDGE_CURVE($,#206,#205,#134,.T.);
#260=EDGE_CURVE($,#205,#182,#135,.T.);
#261=EDGE_CURVE($,#183,#206,#136,.T.);
#262=EDGE_CURVE($,#207,#207,#103,.T.);
#263=ORIENTED_EDGE($,*,*,#208,.T.);
#264=ORIENTED_EDGE($,*,*,#209,.T.);
#265=ORIENTED_EDGE($,*,*,#210,.T.);
#266=ORIENTED_EDGE($,*,*,#211,.T.);
#267=ORIENTED_EDGE($,*,*,#209,.F.);
#268=ORIENTED_EDGE($,*,*,#212,.F.);
#269=ORIENTED_EDGE($,*,*,#213,.T.);
#270=ORIENTED_EDGE($,*,*,#214,.F.);
#271=ORIENTED_EDGE($,*,*,#215,.F.);
#272=ORIENTED_EDGE($,*,*,#216,.T.);
#273=ORIENTED_EDGE($,*,*,#217,.T.);
#274=ORIENTED_EDGE($,*,*,#218,.T.);
#275=ORIENTED_EDGE($,*,*,#219,.T.);
#276=ORIENTED_EDGE($,*,*,#220,.T.);
#277=ORIENTED_EDGE($,*,*,#208,.F.);
#278=ORIENTED_EDGE($,*,*,#221,.T.);
#279=ORIENTED_EDGE($,*,*,#222,.T.);
#280=ORIENTED_EDGE($,*,*,#223,.T.);
#281=ORIENTED_EDGE($,*,*,#212,.T.);
#282=ORIENTED_EDGE($,*,*,#224,.T.);
#283=ORIENTED_EDGE($,*,*,#225,.T.);
#284=ORIENTED_EDGE($,*,*,#226,.T.);
#285=ORIENTED_EDGE($,*,*,#215,.T.);
#286=ORIENTED_EDGE($,*,*,#225,.F.);
#287=ORIENTED_EDGE($,*,*,#227,.F.);
#288=ORIENTED_EDGE($,*,*,#228,.F.);
#289=ORIENTED_EDGE($,*,*,#229,.T.);
#290=ORIENTED_EDGE($,*,*,#224,.F.);
#291=ORIENTED_EDGE($,*,*,#214,.T.);
#292=ORIENTED_EDGE($,*,*,#230,.T.);
#293=ORIENTED_EDGE($,*,*,#231,.T.);
#294=ORIENTED_EDGE($,*,*,#227,.T.);
#295=ORIENTED_EDGE($,*,*,#232,.F.);
#296=ORIENTED_EDGE($,*,*,#233,.T.);
#297=ORIENTED_EDGE($,*,*,#234,.F.);
#298=ORIENTED_EDGE($,*,*,#233,.F.);
#299=ORIENTED_EDGE($,*,*,#235,.T.);
#300=ORIENTED_EDGE($,*,*,#236,.T.);
#301=ORIENTED_EDGE($,*,*,#237,.T.);
#302=ORIENTED_EDGE($,*,*,#238,.T.);
#303=ORIENTED_EDGE($,*,*,#235,.F.);
#304=ORIENTED_EDGE($,*,*,#239,.T.);
#305=ORIENTED_EDGE($,*,*,#231,.F.);
#306=ORIENTED_EDGE($,*,*,#222,.F.);
#307=ORIENTED_EDGE($,*,*,#240,.T.);
#308=ORIENTED_EDGE($,*,*,#237,.F.);
#309=ORIENTED_EDGE($,*,*,#239,.F.);
#310=ORIENTED_EDGE($,*,*,#241,.F.);
#311=ORIENTED_EDGE($,*,*,#242,.T.);
#312=ORIENTED_EDGE($,*,*,#228,.T.);
#313=ORIENTED_EDGE($,*,*,#238,.F.);
#314=ORIENTED_EDGE($,*,*,#243,.F.);
#315=ORIENTED_EDGE($,*,*,#244,.T.);
#316=ORIENTED_EDGE($,*,*,#241,.T.);
#317=ORIENTED_EDGE($,*,*,#240,.F.);
#318=ORIENTED_EDGE($,*,*,#245,.F.);
#319=ORIENTED_EDGE($,*,*,#246,.T.);
#320=ORIENTED_EDGE($,*,*,#243,.T.);
#321=ORIENTED_EDGE($,*,*,#211,.F.);
#322=ORIENTED_EDGE($,*,*,#247,.T.);
#323=ORIENTED_EDGE($,*,*,#245,.T.);
#324=ORIENTED_EDGE($,*,*,#221,.F.);
#325=ORIENTED_EDGE($,*,*,#248,.F.);
#326=ORIENTED_EDGE($,*,*,#217,.F.);
#327=ORIENTED_EDGE($,*,*,#249,.F.);
#328=ORIENTED_EDGE($,*,*,#250,.T.);
#329=ORIENTED_EDGE($,*,*,#251,.F.);
#330=ORIENTED_EDGE($,*,*,#250,.F.);
#331=ORIENTED_EDGE($,*,*,#252,.F.);
#332=ORIENTED_EDGE($,*,*,#253,.T.);
#333=ORIENTED_EDGE($,*,*,#254,.F.);
#334=ORIENTED_EDGE($,*,*,#253,.F.);
#335=ORIENTED_EDGE($,*,*,#255,.F.);
#336=ORIENTED_EDGE($,*,*,#256,.T.);
#337=ORIENTED_EDGE($,*,*,#257,.F.);
#338=ORIENTED_EDGE($,*,*,#256,.F.);
#339=ORIENTED_EDGE($,*,*,#258,.F.);
#340=ORIENTED_EDGE($,*,*,#259,.T.);
#341=ORIENTED_EDGE($,*,*,#260,.F.);
#342=ORIENTED_EDGE($,*,*,#259,.F.);
#343=ORIENTED_EDGE($,*,*,#261,.F.);
#344=ORIENTED_EDGE($,*,*,#219,.F.);
#345=ORIENTED_EDGE($,*,*,#262,.F.);
#346=ORIENTED_EDGE($,*,*,#248,.T.);
#347=ORIENTED_EDGE($,*,*,#251,.T.);
#348=ORIENTED_EDGE($,*,*,#254,.T.);
#349=ORIENTED_EDGE($,*,*,#257,.T.);
#350=ORIENTED_EDGE($,*,*,#260,.T.);
#351=ORIENTED_EDGE($,*,*,#218,.F.);
#352=ORIENTED_EDGE($,*,*,#234,.T.);
#353=ORIENTED_EDGE($,*,*,#262,.T.);
#354=ORIENTED_EDGE($,*,*,#210,.F.);
#355=ORIENTED_EDGE($,*,*,#220,.F.);
#356=ORIENTED_EDGE($,*,*,#261,.T.);
#357=ORIENTED_EDGE($,*,*,#258,.T.);
#358=ORIENTED_EDGE($,*,*,#255,.T.);
#359=ORIENTED_EDGE($,*,*,#252,.T.);
#360=ORIENTED_EDGE($,*,*,#249,.T.);
#361=ORIENTED_EDGE($,*,*,#216,.F.);
#362=ORIENTED_EDGE($,*,*,#226,.F.);
#363=ORIENTED_EDGE($,*,*,#229,.F.);
#364=ORIENTED_EDGE($,*,*,#242,.F.);
#365=ORIENTED_EDGE($,*,*,#244,.F.);
#366=ORIENTED_EDGE($,*,*,#246,.F.);
#367=ORIENTED_EDGE($,*,*,#247,.F.);
#368=ORIENTED_EDGE($,*,*,#232,.T.);
#369=ORIENTED_EDGE($,*,*,#230,.F.);
#370=ORIENTED_EDGE($,*,*,#213,.F.);
#371=ORIENTED_EDGE($,*,*,#223,.F.);
#372=ORIENTED_EDGE($,*,*,#236,.F.);
#373=CYLINDRICAL_SURFACE($,#411,1.);
#374=CYLINDRICAL_SURFACE($,#416,8.);
#375=CYLINDRICAL_SURFACE($,#418,1.);
#376=CYLINDRICAL_SURFACE($,#421,8.);
#377=CYLINDRICAL_SURFACE($,#423,6.);
#378=CYLINDRICAL_SURFACE($,#428,8.);
#379=CYLINDRICAL_SURFACE($,#435,8.);
#380=CYLINDRICAL_SURFACE($,#438,8.);
#381=CYLINDRICAL_SURFACE($,#442,5.);
#382=CYLINDRICAL_SURFACE($,#446,5.);
#383=CYLINDRICAL_SURFACE($,#452,3.125);
#384=ADVANCED_FACE($,(#33),#373,.T.);
#385=ADVANCED_FACE($,(#34),#23,.T.);
#386=ADVANCED_FACE($,(#35),#374,.T.);
#387=ADVANCED_FACE($,(#36),#375,.T.);
#388=ADVANCED_FACE($,(#37),#24,.T.);
#389=ADVANCED_FACE($,(#38),#376,.T.);
#390=ADVANCED_FACE($,(#39,#16),#377,.F.);
#391=ADVANCED_FACE($,(#40,#17),#15,.F.);
#392=ADVANCED_FACE($,(#41),#378,.T.);
#393=ADVANCED_FACE($,(#42),#13,.T.);
#394=ADVANCED_FACE($,(#43),#14,.T.);
#395=ADVANCED_FACE($,(#44),#379,.T.);
#396=ADVANCED_FACE($,(#45),#25,.T.);
#397=ADVANCED_FACE($,(#46),#380,.T.);
#398=ADVANCED_FACE($,(#47),#26,.T.);
#399=ADVANCED_FACE($,(#48),#27,.F.);
#400=ADVANCED_FACE($,(#49),#381,.F.);
#401=ADVANCED_FACE($,(#50),#28,.F.);
#402=ADVANCED_FACE($,(#51),#382,.F.);
#403=ADVANCED_FACE($,(#52),#29,.F.);
#404=ADVANCED_FACE($,(#18,#19),#30,.F.);
#405=ADVANCED_FACE($,(#53,#20),#383,.F.);
#406=ADVANCED_FACE($,(#54),#31,.F.);
#407=ADVANCED_FACE($,(#21,#22),#32,.T.);
#408=CLOSED_SHELL($,(#384,#385,#386,#387,#388,#389,#390,#391,#392,#393,
#394,#395,#396,#397,#398,#399,#400,#401,#402,#403,#404,#405,#406,#407));
#409=MANIFOLD_SOLID_BREP('Solido1',#408);
#410=AXIS2_PLACEMENT_3D('placement',#578,#455,#456);
#411=AXIS2_PLACEMENT_3D($,#579,#457,#458);
#412=AXIS2_PLACEMENT_3D($,#593,#460,#461);
#413=AXIS2_PLACEMENT_3D($,#595,#463,#464);
#414=AXIS2_PLACEMENT_3D($,#597,#465,#466);
#415=AXIS2_PLACEMENT_3D($,#601,#468,#469);
#416=AXIS2_PLACEMENT_3D($,#613,#476,#477);
#417=AXIS2_PLACEMENT_3D($,#617,#479,#480);
#418=AXIS2_PLACEMENT_3D($,#619,#482,#483);
#419=AXIS2_PLACEMENT_3D($,#629,#485,#486);
#420=AXIS2_PLACEMENT_3D($,#630,#487,#488);
#421=AXIS2_PLACEMENT_3D($,#636,#492,#493);
#422=AXIS2_PLACEMENT_3D($,#639,#495,#496);
#423=AXIS2_PLACEMENT_3D($,#640,#497,#498);
#424=AXIS2_PLACEMENT_3D($,#642,#499,#500);
#425=AXIS2_PLACEMENT_3D($,#644,#501,#502);
#426=AXIS2_PLACEMENT_3D($,#645,#503,#504);
#427=AXIS2_PLACEMENT_3D($,#647,#505,#506);
#428=AXIS2_PLACEMENT_3D($,#648,#507,#508);
#429=AXIS2_PLACEMENT_3D($,#650,#509,#510);
#430=AXIS2_PLACEMENT_3D($,#653,#512,#513);
#431=AXIS2_PLACEMENT_3D($,#655,#515,#516);
#432=AXIS2_PLACEMENT_3D($,#656,#517,#518);
#433=AXIS2_PLACEMENT_3D($,#657,#519,#520);
#434=AXIS2_PLACEMENT_3D($,#658,#521,#522);
#435=AXIS2_PLACEMENT_3D($,#659,#523,#524);
#436=AXIS2_PLACEMENT_3D($,#662,#526,#527);
#437=AXIS2_PLACEMENT_3D($,#663,#528,#529);
#438=AXIS2_PLACEMENT_3D($,#667,#532,#533);
#439=AXIS2_PLACEMENT_3D($,#670,#535,#536);
#440=AXIS2_PLACEMENT_3D($,#671,#537,#538);
#441=AXIS2_PLACEMENT_3D($,#673,#540,#541);
#442=AXIS2_PLACEMENT_3D($,#679,#545,#546);
#443=AXIS2_PLACEMENT_3D($,#681,#547,#548);
#444=AXIS2_PLACEMENT_3D($,#683,#549,#550);
#445=AXIS2_PLACEMENT_3D($,#685,#552,#553);
#446=AXIS2_PLACEMENT_3D($,#691,#557,#558);
#447=AXIS2_PLACEMENT_3D($,#693,#559,#560);
#448=AXIS2_PLACEMENT_3D($,#695,#561,#562);
#449=AXIS2_PLACEMENT_3D($,#697,#564,#565);
#450=AXIS2_PLACEMENT_3D($,#700,#568,#569);
#451=AXIS2_PLACEMENT_3D($,#702,#570,#571);
#452=AXIS2_PLACEMENT_3D($,#703,#572,#573);
#453=AXIS2_PLACEMENT_3D($,#704,#574,#575);
#454=AXIS2_PLACEMENT_3D($,#705,#576,#577);
#455=DIRECTION('axis',(0.,0.,1.));
#456=DIRECTION('refdir',(1.,0.,0.));
#457=DIRECTION('center_axis',(0.,0.,1.));
#458=DIRECTION('ref_axis',(0.707106781186547,-0.707106781186548,0.));
#459=DIRECTION($,(0.,0.,-1.));
#460=DIRECTION('center_axis',(0.,0.,1.));
#461=DIRECTION('ref_axis',(0.707106781186547,-0.707106781186548,0.));
#462=DIRECTION($,(0.,0.,1.));
#463=DIRECTION('center_axis',(0.,-1.,0.));
#464=DIRECTION('ref_axis',(0.,0.,-1.));
#465=DIRECTION('center_axis',(0.,1.,0.));
#466=DIRECTION('ref_axis',(0.707106781186548,3.92523114670944E-016,0.707106781186548));
#467=DIRECTION($,(-1.,0.,0.));
#468=DIRECTION('center_axis',(0.,1.,0.));
#469=DIRECTION('ref_axis',(-0.707106781186547,1.47196168001604E-016,0.707106781186548));
#470=DIRECTION($,(0.,0.,1.));
#471=DIRECTION($,(1.,0.,0.));
#472=DIRECTION($,(0.,0.,1.));
#473=DIRECTION($,(1.,0.,0.));
#474=DIRECTION($,(0.,0.,-1.));
#475=DIRECTION($,(1.,0.,0.));
#476=DIRECTION('center_axis',(2.05596856412066E-016,-1.,0.));
#477=DIRECTION('ref_axis',(0.707106781186548,3.92523114670944E-016,0.707106781186548));
#478=DIRECTION($,(-2.05596856412066E-016,1.,0.));
#479=DIRECTION('center_axis',(2.77555756156289E-016,-1.,0.));
#480=DIRECTION('ref_axis',(1.,2.77555756156289E-016,0.));
#481=DIRECTION($,(2.05596856412066E-016,-1.,0.));
#482=DIRECTION('center_axis',(0.,0.,1.));
#483=DIRECTION('ref_axis',(-0.707106781186547,-0.707106781186548,0.));
#484=DIRECTION($,(0.,0.,-1.));
#485=DIRECTION('center_axis',(0.,0.,1.));
#486=DIRECTION('ref_axis',(-0.707106781186547,-0.707106781186548,0.));
#487=DIRECTION('center_axis',(-1.,2.05596856412066E-016,0.));
#488=DIRECTION('ref_axis',(0.,0.,1.));
#489=DIRECTION($,(-2.05596856412066E-016,-1.,0.));
#490=DIRECTION($,(0.,0.,1.));
#491=DIRECTION($,(-2.05596856412066E-016,-1.,0.));
#492=DIRECTION('center_axis',(2.05596856412066E-016,1.,0.));
#493=DIRECTION('ref_axis',(-0.707106781186547,1.47196168001604E-016,0.707106781186548));
#494=DIRECTION($,(2.05596856412066E-016,1.,0.));
#495=DIRECTION('center_axis',(-2.77555756156289E-016,-1.,0.));
#496=DIRECTION('ref_axis',(0.,0.,1.));
#497=DIRECTION('center_axis',(0.,0.,-1.));
#498=DIRECTION('ref_axis',(0.,-1.,0.));
#499=DIRECTION('center_axis',(0.,0.,-1.));
#500=DIRECTION('ref_axis',(0.,-1.,0.));
#501=DIRECTION('center_axis',(0.,0.,-1.));
#502=DIRECTION('ref_axis',(1.,0.,0.));
#503=DIRECTION('center_axis',(0.,0.,1.));
#504=DIRECTION('ref_axis',(0.,-1.,0.));
#505=DIRECTION('center_axis',(0.,0.,1.));
#506=DIRECTION('ref_axis',(-1.,0.,0.));
#507=DIRECTION('center_axis',(1.,0.,0.));
#508=DIRECTION('ref_axis',(0.,0.707106781186548,0.707106781186548));
#509=DIRECTION('center_axis',(1.,0.,0.));
#510=DIRECTION('ref_axis',(0.,1.,0.));
#511=DIRECTION($,(1.,0.,0.));
#512=DIRECTION('center_axis',(-1.,-2.77555756156289E-016,0.));
#513=DIRECTION('ref_axis',(0.,0.,1.));
#514=DIRECTION($,(-1.,0.,0.));
#515=DIRECTION('center_axis',(0.,0.,1.));
#516=DIRECTION('ref_axis',(1.,0.,0.));
#517=DIRECTION('center_axis',(0.,0.,1.));
#518=DIRECTION('ref_axis',(0.,1.,0.));
#519=DIRECTION('center_axis',(0.,0.,1.));
#520=DIRECTION('ref_axis',(1.,0.,0.));
#521=DIRECTION('center_axis',(0.,0.,1.));
#522=DIRECTION('ref_axis',(1.,0.,0.));
#523=DIRECTION('center_axis',(0.,0.,1.));
#524=DIRECTION('ref_axis',(0.,1.,0.));
#525=DIRECTION($,(0.,0.,1.));
#526=DIRECTION('center_axis',(0.,0.,1.));
#527=DIRECTION('ref_axis',(0.,1.,0.));
#528=DIRECTION('center_axis',(0.,1.,0.));
#529=DIRECTION('ref_axis',(0.,0.,1.));
#530=DIRECTION($,(0.,0.,1.));
#531=DIRECTION($,(-1.,0.,0.));
#532=DIRECTION('center_axis',(0.,0.,1.));
#533=DIRECTION('ref_axis',(1.,0.,0.));
#534=DIRECTION($,(0.,0.,1.));
#535=DIRECTION('center_axis',(0.,0.,1.));
#536=DIRECTION('ref_axis',(1.,0.,0.));
#537=DIRECTION('center_axis',(1.,2.05596856412066E-016,0.));
#538=DIRECTION('ref_axis',(0.,0.,-1.));
#539=DIRECTION($,(-2.05596856412066E-016,1.,0.));
#540=DIRECTION('center_axis',(-1.,6.25477760352201E-016,0.));
#541=DIRECTION('ref_axis',(0.,0.,1.));
#542=DIRECTION($,(6.25477760352201E-016,1.,0.));
#543=DIRECTION($,(-6.25477760352201E-016,-1.,0.));
#544=DIRECTION($,(0.,0.,1.));
#545=DIRECTION('center_axis',(0.,0.,1.));
#546=DIRECTION('ref_axis',(0.,1.,0.));
#547=DIRECTION('center_axis',(0.,0.,-1.));
#548=DIRECTION('ref_axis',(0.,1.,0.));
#549=DIRECTION('center_axis',(0.,0.,1.));
#550=DIRECTION('ref_axis',(0.,1.,0.));
#551=DIRECTION($,(0.,0.,1.));
#552=DIRECTION('center_axis',(0.,1.,0.));
#553=DIRECTION('ref_axis',(0.,0.,1.));
#554=DIRECTION($,(1.,0.,0.));
#555=DIRECTION($,(-1.,0.,0.));
#556=DIRECTION($,(0.,0.,1.));
#557=DIRECTION('center_axis',(0.,0.,1.));
#558=DIRECTION('ref_axis',(1.,4.44089209850063E-016,0.));
#559=DIRECTION('center_axis',(0.,0.,-1.));
#560=DIRECTION('ref_axis',(1.,4.44089209850063E-016,0.));
#561=DIRECTION('center_axis',(0.,0.,1.));
#562=DIRECTION('ref_axis',(1.,4.44089209850063E-016,0.));
#563=DIRECTION($,(0.,0.,1.));
#564=DIRECTION('center_axis',(1.,6.25477760352201E-016,0.));
#565=DIRECTION('ref_axis',(0.,0.,-1.));
#566=DIRECTION($,(6.25477760352201E-016,-1.,0.));
#567=DIRECTION($,(-6.25477760352201E-016,1.,0.));
#568=DIRECTION('center_axis',(0.,0.,1.));
#569=DIRECTION('ref_axis',(1.,0.,0.));
#570=DIRECTION('center_axis',(0.,0.,-1.));
#571=DIRECTION('ref_axis',(-1.,0.,0.));
#572=DIRECTION('center_axis',(0.,0.,1.));
#573=DIRECTION('ref_axis',(-1.,0.,0.));
#574=DIRECTION('center_axis',(0.,0.,1.));
#575=DIRECTION('ref_axis',(1.,0.,0.));
#576=DIRECTION('center_axis',(0.,0.,1.));
#577=DIRECTION('ref_axis',(1.,0.,0.));
#578=CARTESIAN_POINT('',(0.,0.,0.));
#579=CARTESIAN_POINT('Origin',(22.5,-8.8,0.));
#580=CARTESIAN_POINT('',(23.5,-8.8,16.5));
#581=CARTESIAN_POINT('',(22.5,-9.79999999999999,20.3729833462074));
#582=CARTESIAN_POINT('Ctrl Pts',(23.5,-8.8,16.5));
#583=CARTESIAN_POINT('Ctrl Pts',(23.5,-8.91930758607009,16.8374528126286));
#584=CARTESIAN_POINT('Ctrl Pts',(23.4773285036935,-9.05038120109863,17.2075006878566));
#585=CARTESIAN_POINT('Ctrl Pts',(23.3772767796239,-9.29824370036635,17.9445892986921));
#586=CARTESIAN_POINT('Ctrl Pts',(23.2997958274485,-9.41441773492464,18.3118229747041));
#587=CARTESIAN_POINT('Ctrl Pts',(23.052614642013,-9.6615989203601,19.2000091934941));
#588=CARTESIAN_POINT('Ctrl Pts',(22.7888171175113,-9.8,19.8509775326377));
#589=CARTESIAN_POINT('Ctrl Pts',(22.5,-9.8,20.3729833462074));
#590=CARTESIAN_POINT('',(22.5,-9.8,0.));
#591=CARTESIAN_POINT($,(22.5,-9.8,0.));
#592=CARTESIAN_POINT('',(23.5,-8.8,0.));
#593=CARTESIAN_POINT('Origin',(22.5,-8.8,0.));
#594=CARTESIAN_POINT($,(23.5,-8.8,0.));
#595=CARTESIAN_POINT('Origin',(-20.25,-9.8,0.));
#596=CARTESIAN_POINT('',(15.5,-9.8,24.5));
#597=CARTESIAN_POINT('Origin',(15.5,-9.79999999999999,16.5));
#598=CARTESIAN_POINT('',(-15.5,-9.8,24.5));
#599=CARTESIAN_POINT($,(-23.5,-9.8,24.5));
#600=CARTESIAN_POINT('',(-22.5,-9.8,20.3729833462074));
#601=CARTESIAN_POINT('Origin',(-15.5,-9.8,16.5));
#602=CARTESIAN_POINT('',(-22.5,-9.8,0.));
#603=CARTESIAN_POINT($,(-22.5,-9.8,0.));
#604=CARTESIAN_POINT('',(-20.25,-9.8,0.));
#605=CARTESIAN_POINT($,(-23.5,-9.8,0.));
#606=CARTESIAN_POINT('',(-20.25,-9.8,18.));
#607=CARTESIAN_POINT($,(-20.25,-9.8,0.));
#608=CARTESIAN_POINT('',(20.25,-9.8,18.));
#609=CARTESIAN_POINT($,(-10.125,-9.8,18.));
#610=CARTESIAN_POINT('',(20.25,-9.8,0.));
#611=CARTESIAN_POINT($,(20.25,-9.8,0.));
#612=CARTESIAN_POINT($,(-23.5,-9.8,0.));
#613=CARTESIAN_POINT('Origin',(15.5,10.4832201917491,16.5));
#614=CARTESIAN_POINT('',(23.5,11.8,16.5));
#615=CARTESIAN_POINT($,(23.5,10.4832201917491,16.5));
#616=CARTESIAN_POINT('',(15.5,11.8,24.5));
#617=CARTESIAN_POINT('Origin',(15.5,11.8,16.5));
#618=CARTESIAN_POINT($,(15.5,10.4832201917491,24.5));
#619=CARTESIAN_POINT('Origin',(-22.5,-8.8,0.));
#620=CARTESIAN_POINT('',(-23.5,-8.8,16.5));
#621=CARTESIAN_POINT('Ctrl Pts',(-22.5,-9.8,20.3729833462074));
#622=CARTESIAN_POINT('Ctrl Pts',(-22.8221231481518,-9.8,19.7907804717048));
#623=CARTESIAN_POINT('Ctrl Pts',(-23.0826309148048,-9.65254866920349,19.1412414058239));
#624=CARTESIAN_POINT('Ctrl Pts',(-23.4220229510159,-9.26503122196928,17.8091647131943));
#625=CARTESIAN_POINT('Ctrl Pts',(-23.5,-9.02179157123908,17.1273212961327));
#626=CARTESIAN_POINT('Ctrl Pts',(-23.5,-8.8,16.5));
#627=CARTESIAN_POINT('',(-23.5,-8.8,0.));
#628=CARTESIAN_POINT($,(-23.5,-8.8,0.));
#629=CARTESIAN_POINT('Origin',(-22.5,-8.8,0.));
#630=CARTESIAN_POINT('Origin',(-23.5,-9.8,0.));
#631=CARTESIAN_POINT('',(-23.5,11.8,16.5));
#632=CARTESIAN_POINT($,(-23.5,-0.316779808250902,16.5));
#633=CARTESIAN_POINT('',(-23.5,11.8,0.));
#634=CARTESIAN_POINT($,(-23.5,11.8,0.));
#635=CARTESIAN_POINT($,(-23.5,11.8,0.));
#636=CARTESIAN_POINT('Origin',(-15.5,-0.316779808250903,16.5));
#637=CARTESIAN_POINT('',(-15.5,11.8,24.5));
#638=CARTESIAN_POINT($,(-15.5,-0.316779808250903,24.5));
#639=CARTESIAN_POINT('Origin',(-15.5,11.8,16.5));
#640=CARTESIAN_POINT('Origin',(0.,6.93889390390723E-017,24.1));
#641=CARTESIAN_POINT('',(0.,-6.,24.5));
#642=CARTESIAN_POINT('Origin',(0.,6.93889390390723E-017,24.5));
#643=CARTESIAN_POINT('',(0.,-6.,23.7));
#644=CARTESIAN_POINT('Origin',(0.,6.93889390390723E-017,23.7));
#645=CARTESIAN_POINT('Origin',(0.,6.93889390390723E-017,23.7));
#646=CARTESIAN_POINT('',(3.125,3.82702124733548E-016,20.825));
#647=CARTESIAN_POINT('Origin',(0.,0.,20.825));
#648=CARTESIAN_POINT('Origin',(-7.75,11.8,16.5));
#649=CARTESIAN_POINT('',(-15.5,19.8,16.5));
#650=CARTESIAN_POINT('Origin',(-15.5,11.8,16.5));
#651=CARTESIAN_POINT($,(-7.75,11.8,24.5));
#652=CARTESIAN_POINT('',(15.5,19.8,16.5));
#653=CARTESIAN_POINT('Origin',(15.5,11.8,16.5));
#654=CARTESIAN_POINT($,(-7.75,19.8,16.5));
#655=CARTESIAN_POINT('Origin',(-15.5,11.8,16.5));
#656=CARTESIAN_POINT('Origin',(-15.5,11.8,16.5));
#657=CARTESIAN_POINT('Origin',(15.5,11.8,16.5));
#658=CARTESIAN_POINT('Origin',(15.5,11.8,16.5));
#659=CARTESIAN_POINT('Origin',(-15.5,11.8,0.));
#660=CARTESIAN_POINT('',(-15.5,19.8,0.));
#661=CARTESIAN_POINT($,(-15.5,19.8,0.));
#662=CARTESIAN_POINT('Origin',(-15.5,11.8,0.));
#663=CARTESIAN_POINT('Origin',(-15.5,19.8,0.));
#664=CARTESIAN_POINT('',(15.5,19.8,0.));
#665=CARTESIAN_POINT($,(15.5,19.8,0.));
#666=CARTESIAN_POINT($,(15.5,19.8,0.));
#667=CARTESIAN_POINT('Origin',(15.5,11.8,0.));
#668=CARTESIAN_POINT('',(23.5,11.8,0.));
#669=CARTESIAN_POINT($,(23.5,11.8,0.));
#670=CARTESIAN_POINT('Origin',(15.5,11.8,0.));
#671=CARTESIAN_POINT('Origin',(23.5,11.8,0.));
#672=CARTESIAN_POINT($,(23.5,-9.8,0.));
#673=CARTESIAN_POINT('Origin',(-20.25,-9.8,0.));
#674=CARTESIAN_POINT('',(-20.25,11.5,18.));
#675=CARTESIAN_POINT($,(-20.25,11.5,18.));
#676=CARTESIAN_POINT('',(-20.25,11.5,0.));
#677=CARTESIAN_POINT($,(-20.25,-0.316779808250897,0.));
#678=CARTESIAN_POINT($,(-20.25,11.5,0.));
#679=CARTESIAN_POINT('Origin',(-15.25,11.5,0.));
#680=CARTESIAN_POINT('',(-15.25,16.5,18.));
#681=CARTESIAN_POINT('Origin',(-15.25,11.5,18.));
#682=CARTESIAN_POINT('',(-15.25,16.5,0.));
#683=CARTESIAN_POINT('Origin',(-15.25,11.5,0.));
#684=CARTESIAN_POINT($,(-15.25,16.5,0.));
#685=CARTESIAN_POINT('Origin',(-15.25,16.5,0.));
#686=CARTESIAN_POINT('',(15.25,16.5,18.));
#687=CARTESIAN_POINT($,(15.25,16.5,18.));
#688=CARTESIAN_POINT('',(15.25,16.5,0.));
#689=CARTESIAN_POINT($,(-7.625,16.5,0.));
#690=CARTESIAN_POINT($,(15.25,16.5,0.));
#691=CARTESIAN_POINT('Origin',(15.25,11.5,0.));
#692=CARTESIAN_POINT('',(20.25,11.5,18.));
#693=CARTESIAN_POINT('Origin',(15.25,11.5,18.));
#694=CARTESIAN_POINT('',(20.25,11.5,0.));
#695=CARTESIAN_POINT('Origin',(15.25,11.5,0.));
#696=CARTESIAN_POINT($,(20.25,11.5,0.));
#697=CARTESIAN_POINT('Origin',(20.25,11.5,0.));
#698=CARTESIAN_POINT($,(20.25,-9.8,18.));
#699=CARTESIAN_POINT($,(20.25,10.3332201917491,0.));
#700=CARTESIAN_POINT('Origin',(5.55111512312578E-016,2.87787855181342,18.));
#701=CARTESIAN_POINT('',(3.125,3.82702124733548E-016,18.));
#702=CARTESIAN_POINT('Origin',(0.,0.,18.));
#703=CARTESIAN_POINT('Origin',(0.,0.,0.));
#704=CARTESIAN_POINT('Origin',(2.77555756156289E-016,9.16644038349819,0.));
#705=CARTESIAN_POINT('Origin',(0.,9.16644038349819,24.5));
#706=UNCERTAINTY_MEASURE_WITH_UNIT(LENGTH_MEASURE(0.01),#708,
'DISTANCE_ACCURACY_VALUE',
'Maximum model space distance between geometric entities at asserted c
onnectivities');
#707=(
GEOMETRIC_REPRESENTATION_CONTEXT(3)
GLOBAL_UNCERTAINTY_ASSIGNED_CONTEXT((#706))
GLOBAL_UNIT_ASSIGNED_CONTEXT((#708,#711,#709))
REPRESENTATION_CONTEXT('','3D')
);
#708=(
LENGTH_UNIT()
NAMED_UNIT(*)
SI_UNIT(.MILLI.,.METRE.)
);
#709=(
NAMED_UNIT(*)
SI_UNIT($,.STERADIAN.)
SOLID_ANGLE_UNIT()
);
#710=DIMENSIONAL_EXPONENTS(0.,0.,0.,0.,0.,0.,0.);
#711=(
CONVERSION_BASED_UNIT('degree',#713)
NAMED_UNIT(#710)
PLANE_ANGLE_UNIT()
);
#712=(
NAMED_UNIT(*)
PLANE_ANGLE_UNIT()
SI_UNIT($,.RADIAN.)
);
#713=PLANE_ANGLE_MEASURE_WITH_UNIT(PLANE_ANGLE_MEASURE(0.01745329252),#712);
#714=SHAPE_DEFINITION_REPRESENTATION(#715,#716);
#715=PRODUCT_DEFINITION_SHAPE('',$,#718);
#716=SHAPE_REPRESENTATION('',(#410),#707);
#717=PRODUCT_DEFINITION_CONTEXT('3D Mechanical Parts',#721,'design');
#718=PRODUCT_DEFINITION('40x8 - Terminale semplice alu',
'40x8 - Terminale semplice alu',#719,#717);
#719=PRODUCT_DEFINITION_FORMATION('',$,#723);
#720=APPLICATION_PROTOCOL_DEFINITION('international standard',
'automotive_design',2009,#721);
#721=APPLICATION_CONTEXT(
'Core Data for Automotive Mechanical Design Process');
#722=PRODUCT_CONTEXT('3D Mechanical Parts',#721,'mechanical');
#723=PRODUCT('40x8 - Terminale semplice alu',
'40x8 - Terminale semplice alu',$,(#722));
#724=PRESENTATION_STYLE_ASSIGNMENT((#725));
#725=SURFACE_STYLE_USAGE(.BOTH.,#726);
#726=SURFACE_SIDE_STYLE($,(#727));
#727=SURFACE_STYLE_FILL_AREA(#728);
#728=FILL_AREA_STYLE($,(#729));
#729=FILL_AREA_STYLE_COLOUR($,#730);
#730=COLOUR_RGB('',0.898039215686275,0.898039215686275,0.898039215686275);
ENDSEC;
END-ISO-10303-21;
