ISO-10303-21;
HEADER;
/* Generated by software containing ST-Developer
 * from STEP Tools, Inc. (www.steptools.com) 
 */

FILE_DESCRIPTION(
/* description */ (''),
/* implementation_level */ '2;1');

FILE_NAME(
/* name */ 
'\\\\SERVER2K12\\Disegni CAD\\Cad Library\\3D - STP\\Accessories\\7214.
stp',
/* time_stamp */ '2018-05-18T16:41:19+02:00',
/* author */ ('gianni'),
/* organization */ (''),
/* preprocessor_version */ 'ST-DEVELOPER v16.5',
/* originating_system */ 'Autodesk Inventor 2017',
/* authorisation */ '');

FILE_SCHEMA (('AUTOMOTIVE_DESIGN { 1 0 10303 214 3 1 1 }'));
ENDSEC;

DATA;
#10=MECHANICAL_DESIGN_GEOMETRIC_PRESENTATION_REPRESENTATION('',(#13),#399);
#11=SHAPE_REPRESENTATION_RELATIONSHIP('SRR','None',#408,#12);
#12=ADVANCED_BREP_SHAPE_REPRESENTATION('',(#14),#398);
#13=STYLED_ITEM('',(#417),#14);
#14=MANIFOLD_SOLID_BREP('Solido2',#219);
#15=PLANE('',#249);
#16=PLANE('',#263);
#17=CONICAL_SURFACE('',#234,7.5625,45.);
#18=CONICAL_SURFACE('',#239,7.5625,45.);
#19=CONICAL_SURFACE('',#244,7.5625,45.);
#20=CONICAL_SURFACE('',#255,7.5625,45.);
#21=TOROIDAL_SURFACE('',#233,22.,7.);
#22=TOROIDAL_SURFACE('',#259,47.,2.5);
#23=FACE_BOUND('',#58,.T.);
#24=FACE_BOUND('',#60,.T.);
#25=FACE_BOUND('',#62,.T.);
#26=FACE_BOUND('',#64,.T.);
#27=FACE_BOUND('',#66,.T.);
#28=FACE_BOUND('',#68,.T.);
#29=FACE_BOUND('',#70,.T.);
#30=FACE_BOUND('',#72,.T.);
#31=FACE_BOUND('',#74,.T.);
#32=FACE_BOUND('',#76,.T.);
#33=FACE_BOUND('',#77,.T.);
#34=FACE_BOUND('',#79,.T.);
#35=FACE_BOUND('',#81,.T.);
#36=FACE_BOUND('',#83,.T.);
#37=FACE_BOUND('',#85,.T.);
#38=FACE_BOUND('',#87,.T.);
#39=FACE_BOUND('',#88,.T.);
#40=FACE_BOUND('',#89,.T.);
#41=FACE_BOUND('',#90,.T.);
#42=FACE_OUTER_BOUND('',#57,.T.);
#43=FACE_OUTER_BOUND('',#59,.T.);
#44=FACE_OUTER_BOUND('',#61,.T.);
#45=FACE_OUTER_BOUND('',#63,.T.);
#46=FACE_OUTER_BOUND('',#65,.T.);
#47=FACE_OUTER_BOUND('',#67,.T.);
#48=FACE_OUTER_BOUND('',#69,.T.);
#49=FACE_OUTER_BOUND('',#71,.T.);
#50=FACE_OUTER_BOUND('',#73,.T.);
#51=FACE_OUTER_BOUND('',#75,.T.);
#52=FACE_OUTER_BOUND('',#78,.T.);
#53=FACE_OUTER_BOUND('',#80,.T.);
#54=FACE_OUTER_BOUND('',#82,.T.);
#55=FACE_OUTER_BOUND('',#84,.T.);
#56=FACE_OUTER_BOUND('',#86,.T.);
#57=EDGE_LOOP('',(#153));
#58=EDGE_LOOP('',(#154));
#59=EDGE_LOOP('',(#155));
#60=EDGE_LOOP('',(#156));
#61=EDGE_LOOP('',(#157));
#62=EDGE_LOOP('',(#158));
#63=EDGE_LOOP('',(#159));
#64=EDGE_LOOP('',(#160));
#65=EDGE_LOOP('',(#161));
#66=EDGE_LOOP('',(#162));
#67=EDGE_LOOP('',(#163));
#68=EDGE_LOOP('',(#164));
#69=EDGE_LOOP('',(#165));
#70=EDGE_LOOP('',(#166));
#71=EDGE_LOOP('',(#167));
#72=EDGE_LOOP('',(#168));
#73=EDGE_LOOP('',(#169));
#74=EDGE_LOOP('',(#170));
#75=EDGE_LOOP('',(#171,#172,#173,#174,#175,#176,#177,#178));
#76=EDGE_LOOP('',(#179));
#77=EDGE_LOOP('',(#180));
#78=EDGE_LOOP('',(#181));
#79=EDGE_LOOP('',(#182));
#80=EDGE_LOOP('',(#183));
#81=EDGE_LOOP('',(#184));
#82=EDGE_LOOP('',(#185));
#83=EDGE_LOOP('',(#186,#187,#188,#189));
#84=EDGE_LOOP('',(#190));
#85=EDGE_LOOP('',(#191));
#86=EDGE_LOOP('',(#192));
#87=EDGE_LOOP('',(#193));
#88=EDGE_LOOP('',(#194));
#89=EDGE_LOOP('',(#195));
#90=EDGE_LOOP('',(#196));
#91=CIRCLE('',#228,7.);
#92=CIRCLE('',#229,7.);
#93=CIRCLE('',#231,7.);
#94=CIRCLE('',#232,7.);
#95=CIRCLE('',#235,9.99999999999999);
#96=CIRCLE('',#236,5.125);
#97=CIRCLE('',#238,5.125);
#98=CIRCLE('',#240,9.99999999999999);
#99=CIRCLE('',#241,5.125);
#100=CIRCLE('',#243,5.125);
#101=CIRCLE('',#245,9.99999999999999);
#102=CIRCLE('',#246,5.125);
#103=CIRCLE('',#248,5.125);
#104=CIRCLE('',#250,47.);
#105=CIRCLE('',#251,10.);
#106=CIRCLE('',#252,47.);
#107=CIRCLE('',#253,47.);
#108=CIRCLE('',#254,47.);
#109=CIRCLE('',#256,5.125);
#110=CIRCLE('',#258,5.125);
#111=CIRCLE('',#260,49.5);
#112=CIRCLE('',#262,49.5);
#113=VERTEX_POINT('',#342);
#114=VERTEX_POINT('',#344);
#115=VERTEX_POINT('',#347);
#116=VERTEX_POINT('',#349);
#117=VERTEX_POINT('',#353);
#118=VERTEX_POINT('',#355);
#119=VERTEX_POINT('',#358);
#120=VERTEX_POINT('',#361);
#121=VERTEX_POINT('',#363);
#122=VERTEX_POINT('',#366);
#123=VERTEX_POINT('',#369);
#124=VERTEX_POINT('',#371);
#125=VERTEX_POINT('',#374);
#126=VERTEX_POINT('',#377);
#127=VERTEX_POINT('',#384);
#128=VERTEX_POINT('',#387);
#129=VERTEX_POINT('',#390);
#130=VERTEX_POINT('',#393);
#131=EDGE_CURVE('',#113,#113,#91,.T.);
#132=EDGE_CURVE('',#114,#114,#92,.T.);
#133=EDGE_CURVE('',#115,#115,#93,.T.);
#134=EDGE_CURVE('',#116,#116,#94,.T.);
#135=EDGE_CURVE('',#117,#117,#95,.T.);
#136=EDGE_CURVE('',#118,#118,#96,.T.);
#137=EDGE_CURVE('',#119,#119,#97,.T.);
#138=EDGE_CURVE('',#120,#120,#98,.T.);
#139=EDGE_CURVE('',#121,#121,#99,.T.);
#140=EDGE_CURVE('',#122,#122,#100,.T.);
#141=EDGE_CURVE('',#123,#123,#101,.T.);
#142=EDGE_CURVE('',#124,#124,#102,.T.);
#143=EDGE_CURVE('',#125,#125,#103,.T.);
#144=EDGE_CURVE('',#126,#123,#104,.T.);
#145=EDGE_CURVE('',#126,#126,#105,.T.);
#146=EDGE_CURVE('',#117,#126,#106,.T.);
#147=EDGE_CURVE('',#120,#117,#107,.T.);
#148=EDGE_CURVE('',#123,#120,#108,.T.);
#149=EDGE_CURVE('',#127,#127,#109,.T.);
#150=EDGE_CURVE('',#128,#128,#110,.T.);
#151=EDGE_CURVE('',#129,#129,#111,.T.);
#152=EDGE_CURVE('',#130,#130,#112,.T.);
#153=ORIENTED_EDGE('',*,*,#131,.F.);
#154=ORIENTED_EDGE('',*,*,#132,.F.);
#155=ORIENTED_EDGE('',*,*,#133,.T.);
#156=ORIENTED_EDGE('',*,*,#134,.F.);
#157=ORIENTED_EDGE('',*,*,#131,.T.);
#158=ORIENTED_EDGE('',*,*,#133,.F.);
#159=ORIENTED_EDGE('',*,*,#135,.F.);
#160=ORIENTED_EDGE('',*,*,#136,.F.);
#161=ORIENTED_EDGE('',*,*,#137,.F.);
#162=ORIENTED_EDGE('',*,*,#136,.T.);
#163=ORIENTED_EDGE('',*,*,#138,.F.);
#164=ORIENTED_EDGE('',*,*,#139,.F.);
#165=ORIENTED_EDGE('',*,*,#140,.F.);
#166=ORIENTED_EDGE('',*,*,#139,.T.);
#167=ORIENTED_EDGE('',*,*,#141,.F.);
#168=ORIENTED_EDGE('',*,*,#142,.F.);
#169=ORIENTED_EDGE('',*,*,#143,.F.);
#170=ORIENTED_EDGE('',*,*,#142,.T.);
#171=ORIENTED_EDGE('',*,*,#144,.F.);
#172=ORIENTED_EDGE('',*,*,#145,.T.);
#173=ORIENTED_EDGE('',*,*,#146,.F.);
#174=ORIENTED_EDGE('',*,*,#135,.T.);
#175=ORIENTED_EDGE('',*,*,#147,.F.);
#176=ORIENTED_EDGE('',*,*,#138,.T.);
#177=ORIENTED_EDGE('',*,*,#148,.F.);
#178=ORIENTED_EDGE('',*,*,#141,.T.);
#179=ORIENTED_EDGE('',*,*,#134,.T.);
#180=ORIENTED_EDGE('',*,*,#132,.T.);
#181=ORIENTED_EDGE('',*,*,#145,.F.);
#182=ORIENTED_EDGE('',*,*,#149,.F.);
#183=ORIENTED_EDGE('',*,*,#150,.F.);
#184=ORIENTED_EDGE('',*,*,#149,.T.);
#185=ORIENTED_EDGE('',*,*,#151,.F.);
#186=ORIENTED_EDGE('',*,*,#144,.T.);
#187=ORIENTED_EDGE('',*,*,#148,.T.);
#188=ORIENTED_EDGE('',*,*,#147,.T.);
#189=ORIENTED_EDGE('',*,*,#146,.T.);
#190=ORIENTED_EDGE('',*,*,#152,.F.);
#191=ORIENTED_EDGE('',*,*,#151,.T.);
#192=ORIENTED_EDGE('',*,*,#152,.T.);
#193=ORIENTED_EDGE('',*,*,#137,.T.);
#194=ORIENTED_EDGE('',*,*,#140,.T.);
#195=ORIENTED_EDGE('',*,*,#143,.T.);
#196=ORIENTED_EDGE('',*,*,#150,.T.);
#197=CYLINDRICAL_SURFACE('',#227,7.);
#198=CYLINDRICAL_SURFACE('',#230,7.);
#199=CYLINDRICAL_SURFACE('',#237,5.125);
#200=CYLINDRICAL_SURFACE('',#242,5.125);
#201=CYLINDRICAL_SURFACE('',#247,5.125);
#202=CYLINDRICAL_SURFACE('',#257,5.125);
#203=CYLINDRICAL_SURFACE('',#261,49.5);
#204=ADVANCED_FACE('',(#42,#23),#197,.T.);
#205=ADVANCED_FACE('',(#43,#24),#198,.T.);
#206=ADVANCED_FACE('',(#44,#25),#21,.T.);
#207=ADVANCED_FACE('',(#45,#26),#17,.F.);
#208=ADVANCED_FACE('',(#46,#27),#199,.F.);
#209=ADVANCED_FACE('',(#47,#28),#18,.F.);
#210=ADVANCED_FACE('',(#48,#29),#200,.F.);
#211=ADVANCED_FACE('',(#49,#30),#19,.F.);
#212=ADVANCED_FACE('',(#50,#31),#201,.F.);
#213=ADVANCED_FACE('',(#51,#32,#33),#15,.T.);
#214=ADVANCED_FACE('',(#52,#34),#20,.F.);
#215=ADVANCED_FACE('',(#53,#35),#202,.F.);
#216=ADVANCED_FACE('',(#54,#36),#22,.T.);
#217=ADVANCED_FACE('',(#55,#37),#203,.T.);
#218=ADVANCED_FACE('',(#56,#38,#39,#40,#41),#16,.T.);
#219=CLOSED_SHELL('',(#204,#205,#206,#207,#208,#209,#210,#211,#212,#213,
#214,#215,#216,#217,#218));
#220=DATE_TIME_ROLE('creation_date');
#221=APPLIED_DATE_AND_TIME_ASSIGNMENT(#222,#220,(#410));
#222=DATE_AND_TIME(#223,#224);
#223=CALENDAR_DATE(2006,4,12);
#224=LOCAL_TIME(13,12,15.,#225);
#225=COORDINATED_UNIVERSAL_TIME_OFFSET(0,0,.BEHIND.);
#226=AXIS2_PLACEMENT_3D('placement',#340,#264,#265);
#227=AXIS2_PLACEMENT_3D('',#341,#266,#267);
#228=AXIS2_PLACEMENT_3D('',#343,#268,#269);
#229=AXIS2_PLACEMENT_3D('',#345,#270,#271);
#230=AXIS2_PLACEMENT_3D('',#346,#272,#273);
#231=AXIS2_PLACEMENT_3D('',#348,#274,#275);
#232=AXIS2_PLACEMENT_3D('',#350,#276,#277);
#233=AXIS2_PLACEMENT_3D('',#351,#278,#279);
#234=AXIS2_PLACEMENT_3D('',#352,#280,#281);
#235=AXIS2_PLACEMENT_3D('',#354,#282,#283);
#236=AXIS2_PLACEMENT_3D('',#356,#284,#285);
#237=AXIS2_PLACEMENT_3D('',#357,#286,#287);
#238=AXIS2_PLACEMENT_3D('',#359,#288,#289);
#239=AXIS2_PLACEMENT_3D('',#360,#290,#291);
#240=AXIS2_PLACEMENT_3D('',#362,#292,#293);
#241=AXIS2_PLACEMENT_3D('',#364,#294,#295);
#242=AXIS2_PLACEMENT_3D('',#365,#296,#297);
#243=AXIS2_PLACEMENT_3D('',#367,#298,#299);
#244=AXIS2_PLACEMENT_3D('',#368,#300,#301);
#245=AXIS2_PLACEMENT_3D('',#370,#302,#303);
#246=AXIS2_PLACEMENT_3D('',#372,#304,#305);
#247=AXIS2_PLACEMENT_3D('',#373,#306,#307);
#248=AXIS2_PLACEMENT_3D('',#375,#308,#309);
#249=AXIS2_PLACEMENT_3D('',#376,#310,#311);
#250=AXIS2_PLACEMENT_3D('',#378,#312,#313);
#251=AXIS2_PLACEMENT_3D('',#379,#314,#315);
#252=AXIS2_PLACEMENT_3D('',#380,#316,#317);
#253=AXIS2_PLACEMENT_3D('',#381,#318,#319);
#254=AXIS2_PLACEMENT_3D('',#382,#320,#321);
#255=AXIS2_PLACEMENT_3D('',#383,#322,#323);
#256=AXIS2_PLACEMENT_3D('',#385,#324,#325);
#257=AXIS2_PLACEMENT_3D('',#386,#326,#327);
#258=AXIS2_PLACEMENT_3D('',#388,#328,#329);
#259=AXIS2_PLACEMENT_3D('',#389,#330,#331);
#260=AXIS2_PLACEMENT_3D('',#391,#332,#333);
#261=AXIS2_PLACEMENT_3D('',#392,#334,#335);
#262=AXIS2_PLACEMENT_3D('',#394,#336,#337);
#263=AXIS2_PLACEMENT_3D('',#395,#338,#339);
#264=DIRECTION('axis',(0.,0.,1.));
#265=DIRECTION('refdir',(1.,0.,0.));
#266=DIRECTION('center_axis',(0.,0.,-1.));
#267=DIRECTION('ref_axis',(-1.,0.,0.));
#268=DIRECTION('center_axis',(0.,0.,1.));
#269=DIRECTION('ref_axis',(-1.,0.,0.));
#270=DIRECTION('center_axis',(0.,0.,-1.));
#271=DIRECTION('ref_axis',(-1.,0.,0.));
#272=DIRECTION('center_axis',(0.,0.,1.));
#273=DIRECTION('ref_axis',(1.,0.,0.));
#274=DIRECTION('center_axis',(0.,0.,-1.));
#275=DIRECTION('ref_axis',(1.,0.,0.));
#276=DIRECTION('center_axis',(0.,0.,-1.));
#277=DIRECTION('ref_axis',(-1.,0.,0.));
#278=DIRECTION('center_axis',(0.,1.,0.));
#279=DIRECTION('ref_axis',(0.,0.,1.));
#280=DIRECTION('center_axis',(-3.0626842058625E-16,-3.0626842058625E-16,
1.));
#281=DIRECTION('ref_axis',(-1.83697019872103E-16,1.,3.0626842058625E-16));
#282=DIRECTION('center_axis',(0.,0.,-1.));
#283=DIRECTION('ref_axis',(-1.83697019872103E-16,1.,3.0626842058625E-16));
#284=DIRECTION('center_axis',(-3.0626842058625E-16,-3.0626842058625E-16,
1.));
#285=DIRECTION('ref_axis',(-1.83697019872103E-16,1.,3.0626842058625E-16));
#286=DIRECTION('center_axis',(-3.0626842058625E-16,-3.0626842058625E-16,
1.));
#287=DIRECTION('ref_axis',(-1.83697019872103E-16,1.,3.0626842058625E-16));
#288=DIRECTION('center_axis',(0.,0.,1.));
#289=DIRECTION('ref_axis',(-1.83697019872103E-16,1.,3.0626842058625E-16));
#290=DIRECTION('center_axis',(0.,-6.125368411725E-16,1.));
#291=DIRECTION('ref_axis',(-1.,-1.22464679914735E-16,0.));
#292=DIRECTION('center_axis',(0.,0.,-1.));
#293=DIRECTION('ref_axis',(-1.,-1.22464679914735E-16,0.));
#294=DIRECTION('center_axis',(0.,-6.125368411725E-16,1.));
#295=DIRECTION('ref_axis',(-1.,-1.22464679914735E-16,0.));
#296=DIRECTION('center_axis',(0.,-6.125368411725E-16,1.));
#297=DIRECTION('ref_axis',(-1.,-1.22464679914735E-16,0.));
#298=DIRECTION('center_axis',(0.,0.,1.));
#299=DIRECTION('ref_axis',(-1.,-1.22464679914735E-16,0.));
#300=DIRECTION('center_axis',(3.0626842058625E-16,-3.0626842058625E-16,
1.));
#301=DIRECTION('ref_axis',(6.12323399573677E-17,-1.,-3.0626842058625E-16));
#302=DIRECTION('center_axis',(0.,0.,-1.));
#303=DIRECTION('ref_axis',(6.12323399573677E-17,-1.,-3.0626842058625E-16));
#304=DIRECTION('center_axis',(3.0626842058625E-16,-3.0626842058625E-16,
1.));
#305=DIRECTION('ref_axis',(6.12323399573676E-17,-1.,-3.0626842058625E-16));
#306=DIRECTION('center_axis',(3.0626842058625E-16,-3.0626842058625E-16,
1.));
#307=DIRECTION('ref_axis',(6.12323399573676E-17,-1.,-3.0626842058625E-16));
#308=DIRECTION('center_axis',(0.,0.,1.));
#309=DIRECTION('ref_axis',(6.12323399573676E-17,-1.,-3.0626842058625E-16));
#310=DIRECTION('center_axis',(0.,0.,1.));
#311=DIRECTION('ref_axis',(1.,0.,0.));
#312=DIRECTION('center_axis',(0.,0.,-1.));
#313=DIRECTION('ref_axis',(0.,1.,3.0626842058625E-16));
#314=DIRECTION('center_axis',(0.,0.,-1.));
#315=DIRECTION('ref_axis',(1.,0.,0.));
#316=DIRECTION('center_axis',(0.,0.,-1.));
#317=DIRECTION('ref_axis',(0.,1.,3.0626842058625E-16));
#318=DIRECTION('center_axis',(0.,0.,-1.));
#319=DIRECTION('ref_axis',(0.,1.,3.0626842058625E-16));
#320=DIRECTION('center_axis',(0.,0.,-1.));
#321=DIRECTION('ref_axis',(0.,1.,3.0626842058625E-16));
#322=DIRECTION('center_axis',(0.,0.,1.));
#323=DIRECTION('ref_axis',(1.,0.,0.));
#324=DIRECTION('center_axis',(0.,0.,1.));
#325=DIRECTION('ref_axis',(1.,0.,0.));
#326=DIRECTION('center_axis',(0.,0.,1.));
#327=DIRECTION('ref_axis',(1.,0.,0.));
#328=DIRECTION('center_axis',(0.,0.,1.));
#329=DIRECTION('ref_axis',(1.,0.,0.));
#330=DIRECTION('center_axis',(0.,0.,-1.));
#331=DIRECTION('ref_axis',(-1.,0.,0.));
#332=DIRECTION('center_axis',(0.,0.,-1.));
#333=DIRECTION('ref_axis',(0.,1.,3.0626842058625E-16));
#334=DIRECTION('center_axis',(0.,0.,-1.));
#335=DIRECTION('ref_axis',(0.,1.,3.0626842058625E-16));
#336=DIRECTION('center_axis',(0.,0.,-1.));
#337=DIRECTION('ref_axis',(0.,1.,3.0626842058625E-16));
#338=DIRECTION('center_axis',(0.,0.,-1.));
#339=DIRECTION('ref_axis',(-1.,0.,0.));
#340=CARTESIAN_POINT('',(0.,0.,0.));
#341=CARTESIAN_POINT('Origin',(22.,0.,21.));
#342=CARTESIAN_POINT('',(29.,8.57224447675664E-16,21.));
#343=CARTESIAN_POINT('Origin',(22.,0.,21.));
#344=CARTESIAN_POINT('',(29.,-8.57252759403147E-16,10.));
#345=CARTESIAN_POINT('Origin',(22.,0.,10.));
#346=CARTESIAN_POINT('Origin',(-22.,0.,6.66133814775094E-15));
#347=CARTESIAN_POINT('',(-29.,8.57224447675664E-16,21.));
#348=CARTESIAN_POINT('Origin',(-22.,0.,21.));
#349=CARTESIAN_POINT('',(-15.,-8.57252759403147E-16,10.));
#350=CARTESIAN_POINT('Origin',(-22.,0.,10.));
#351=CARTESIAN_POINT('Origin',(0.,0.,21.));
#352=CARTESIAN_POINT('Origin',(26.1629509039023,26.1629509039023,7.56250000000002));
#353=CARTESIAN_POINT('',(33.2340187157677,33.2340187157677,10.));
#354=CARTESIAN_POINT('Origin',(26.1629509039023,26.1629509039023,10.));
#355=CARTESIAN_POINT('',(26.1629509039023,31.2879509039023,5.12500000000002));
#356=CARTESIAN_POINT('Origin',(26.1629509039023,26.1629509039023,5.12500000000003));
#357=CARTESIAN_POINT('Origin',(26.1629509039023,26.1629509039023,-130.36381300036));
#358=CARTESIAN_POINT('',(26.1629509039023,21.0379509039023,1.4456145646923E-14));
#359=CARTESIAN_POINT('Origin',(26.1629509039023,26.1629509039023,1.77635683940025E-14));
#360=CARTESIAN_POINT('Origin',(-26.1629509039023,26.1629509039022,7.56250000000002));
#361=CARTESIAN_POINT('',(-33.2340187157677,33.2340187157677,10.));
#362=CARTESIAN_POINT('Origin',(-26.1629509039023,26.1629509039022,10.));
#363=CARTESIAN_POINT('',(-31.2879509039023,26.1629509039023,5.12500000000002));
#364=CARTESIAN_POINT('Origin',(-26.1629509039023,26.1629509039023,5.12500000000003));
#365=CARTESIAN_POINT('Origin',(-26.1629509039023,26.1629509039023,-130.36381300036));
#366=CARTESIAN_POINT('',(-21.0379509039023,26.1629509039023,1.60257713024275E-14));
#367=CARTESIAN_POINT('Origin',(-26.1629509039023,26.1629509039023,0.));
#368=CARTESIAN_POINT('Origin',(-26.1629509039023,-26.1629509039023,7.5625));
#369=CARTESIAN_POINT('',(-33.2340187157677,-33.2340187157677,10.));
#370=CARTESIAN_POINT('Origin',(-26.1629509039023,-26.1629509039023,9.99999999999999));
#371=CARTESIAN_POINT('',(-26.1629509039023,-31.2879509039023,5.125));
#372=CARTESIAN_POINT('Origin',(-26.1629509039023,-26.1629509039023,5.12500000000001));
#373=CARTESIAN_POINT('Origin',(-26.1629509039023,-26.1629509039022,-130.36381300036));
#374=CARTESIAN_POINT('',(-26.1629509039023,-21.0379509039023,1.56962565550453E-15));
#375=CARTESIAN_POINT('Origin',(-26.1629509039023,-26.1629509039023,0.));
#376=CARTESIAN_POINT('Origin',(0.,23.5,10.));
#377=CARTESIAN_POINT('',(33.2340187157677,-33.2340187157677,10.));
#378=CARTESIAN_POINT('Origin',(0.,0.,10.));
#379=CARTESIAN_POINT('Origin',(26.1629509039023,-26.1629509039023,10.));
#380=CARTESIAN_POINT('Origin',(0.,0.,10.));
#381=CARTESIAN_POINT('Origin',(0.,0.,10.));
#382=CARTESIAN_POINT('Origin',(0.,0.,10.));
#383=CARTESIAN_POINT('Origin',(26.1629509039023,-26.1629509039023,7.5625));
#384=CARTESIAN_POINT('',(31.2879509039023,-26.1629509039023,5.125));
#385=CARTESIAN_POINT('Origin',(26.1629509039023,-26.1629509039023,5.12500000000001));
#386=CARTESIAN_POINT('Origin',(26.1629509039023,-26.1629509039023,-130.36381300036));
#387=CARTESIAN_POINT('',(21.0379509039023,-26.1629509039023,0.));
#388=CARTESIAN_POINT('Origin',(26.1629509039023,-26.1629509039023,0.));
#389=CARTESIAN_POINT('Origin',(0.,0.,7.5));
#390=CARTESIAN_POINT('',(0.,49.5,7.5));
#391=CARTESIAN_POINT('Origin',(0.,0.,7.5));
#392=CARTESIAN_POINT('Origin',(0.,0.,3.75));
#393=CARTESIAN_POINT('',(0.,49.5,2.56581457304711E-15));
#394=CARTESIAN_POINT('Origin',(0.,0.,2.56581457304711E-15));
#395=CARTESIAN_POINT('Origin',(0.,21.75,6.66133814775094E-15));
#396=UNCERTAINTY_MEASURE_WITH_UNIT(LENGTH_MEASURE(0.01),#400,
'DISTANCE_ACCURACY_VALUE',
'Maximum model space distance between geometric entities at asserted c
onnectivities');
#397=UNCERTAINTY_MEASURE_WITH_UNIT(LENGTH_MEASURE(1.E-6),#400,
'DISTANCE_ACCURACY_VALUE',
'Maximum model space distance between geometric entities at asserted c
onnectivities');
#398=(
GEOMETRIC_REPRESENTATION_CONTEXT(3)
GLOBAL_UNCERTAINTY_ASSIGNED_CONTEXT((#396))
GLOBAL_UNIT_ASSIGNED_CONTEXT((#400,#403,#401))
REPRESENTATION_CONTEXT('','3D')
);
#399=(
GEOMETRIC_REPRESENTATION_CONTEXT(3)
GLOBAL_UNCERTAINTY_ASSIGNED_CONTEXT((#397))
GLOBAL_UNIT_ASSIGNED_CONTEXT((#400,#403,#401))
REPRESENTATION_CONTEXT('','3D')
);
#400=(
LENGTH_UNIT()
NAMED_UNIT(*)
SI_UNIT(.MILLI.,.METRE.)
);
#401=(
NAMED_UNIT(*)
SI_UNIT($,.STERADIAN.)
SOLID_ANGLE_UNIT()
);
#402=DIMENSIONAL_EXPONENTS(0.,0.,0.,0.,0.,0.,0.);
#403=(
CONVERSION_BASED_UNIT('degree',#405)
NAMED_UNIT(#402)
PLANE_ANGLE_UNIT()
);
#404=(
NAMED_UNIT(*)
PLANE_ANGLE_UNIT()
SI_UNIT($,.RADIAN.)
);
#405=PLANE_ANGLE_MEASURE_WITH_UNIT(PLANE_ANGLE_MEASURE(0.01745329252),#404);
#406=SHAPE_DEFINITION_REPRESENTATION(#407,#408);
#407=PRODUCT_DEFINITION_SHAPE('',$,#410);
#408=SHAPE_REPRESENTATION('',(#226),#398);
#409=PRODUCT_DEFINITION_CONTEXT('part definition',#414,'design');
#410=PRODUCT_DEFINITION('18051808','Golfare \X\D814 (CAD Lib)',#411,#409);
#411=PRODUCT_DEFINITION_FORMATION('',$,#416);
#412=PRODUCT_RELATED_PRODUCT_CATEGORY('Golfare \X\D814 (CAD Lib)',
'Golfare \X\D814 (CAD Lib)',(#416));
#413=APPLICATION_PROTOCOL_DEFINITION('international standard',
'automotive_design',2009,#414);
#414=APPLICATION_CONTEXT(
'Core Data for Automotive Mechanical Design Process');
#415=PRODUCT_CONTEXT('part definition',#414,'mechanical');
#416=PRODUCT('18051808','Golfare \X\D814 (CAD Lib)',$,(#415));
#417=PRESENTATION_STYLE_ASSIGNMENT((#418));
#418=SURFACE_STYLE_USAGE(.BOTH.,#419);
#419=SURFACE_SIDE_STYLE('',(#420));
#420=SURFACE_STYLE_FILL_AREA(#421);
#421=FILL_AREA_STYLE('',(#422));
#422=FILL_AREA_STYLE_COLOUR('',#423);
#423=COLOUR_RGB('',0.749019607843137,0.749019607843137,0.749019607843137);
ENDSEC;
END-ISO-10303-21;
