ISO-10303-21;
HEADER;
/* Generated by software containing ST-Developer
 * from STEP Tools, Inc. (www.steptools.com) 
 */

FILE_DESCRIPTION(
/* description */ (''),
/* implementation_level */ '2;1');

FILE_NAME(
/* name */ 
'\\\\SERVER2K12\\Disegni CAD\\Cad Library\\3D - STP\\Soft-Link\\R30.56.
stp',
/* time_stamp */ '2019-01-18T14:15:39+01:00',
/* author */ ('gianni'),
/* organization */ (''),
/* preprocessor_version */ 'ST-DEVELOPER v16.5',
/* originating_system */ 'Autodesk Inventor 2017',
/* authorisation */ '');

FILE_SCHEMA (('AUTOMOTIVE_DESIGN { 1 0 10303 214 3 1 1 }'));
ENDSEC;

DATA;
#10=MECHANICAL_DESIGN_GEOMETRIC_PRESENTATION_REPRESENTATION('',(#13),#229);
#11=SHAPE_REPRESENTATION_RELATIONSHIP('SRR','None',#238,#12);
#12=ADVANCED_BREP_SHAPE_REPRESENTATION('',(#14),#228);
#13=STYLED_ITEM('',(#247),#14);
#14=MANIFOLD_SOLID_BREP('Solido1',#125);
#15=CYLINDRICAL_SURFACE('',#138,28.);
#16=CYLINDRICAL_SURFACE('',#146,28.);
#17=TOROIDAL_SURFACE('',#136,24.,4.);
#18=TOROIDAL_SURFACE('',#140,26.5,1.5);
#19=TOROIDAL_SURFACE('',#142,26.5,1.5);
#20=TOROIDAL_SURFACE('',#144,26.5,1.5);
#21=TOROIDAL_SURFACE('',#148,24.,4.);
#22=TOROIDAL_SURFACE('',#152,23.,8.);
#23=FACE_BOUND('',#44,.T.);
#24=FACE_BOUND('',#46,.T.);
#25=FACE_BOUND('',#48,.T.);
#26=FACE_BOUND('',#50,.T.);
#27=FACE_BOUND('',#52,.T.);
#28=FACE_BOUND('',#54,.T.);
#29=FACE_BOUND('',#56,.T.);
#30=FACE_BOUND('',#58,.T.);
#31=FACE_BOUND('',#60,.T.);
#32=FACE_BOUND('',#62,.T.);
#33=FACE_OUTER_BOUND('',#43,.T.);
#34=FACE_OUTER_BOUND('',#45,.T.);
#35=FACE_OUTER_BOUND('',#47,.T.);
#36=FACE_OUTER_BOUND('',#49,.T.);
#37=FACE_OUTER_BOUND('',#51,.T.);
#38=FACE_OUTER_BOUND('',#53,.T.);
#39=FACE_OUTER_BOUND('',#55,.T.);
#40=FACE_OUTER_BOUND('',#57,.T.);
#41=FACE_OUTER_BOUND('',#59,.T.);
#42=FACE_OUTER_BOUND('',#61,.T.);
#43=EDGE_LOOP('',(#93));
#44=EDGE_LOOP('',(#94));
#45=EDGE_LOOP('',(#95));
#46=EDGE_LOOP('',(#96));
#47=EDGE_LOOP('',(#97));
#48=EDGE_LOOP('',(#98));
#49=EDGE_LOOP('',(#99));
#50=EDGE_LOOP('',(#100));
#51=EDGE_LOOP('',(#101));
#52=EDGE_LOOP('',(#102));
#53=EDGE_LOOP('',(#103));
#54=EDGE_LOOP('',(#104));
#55=EDGE_LOOP('',(#105));
#56=EDGE_LOOP('',(#106));
#57=EDGE_LOOP('',(#107));
#58=EDGE_LOOP('',(#108));
#59=EDGE_LOOP('',(#109));
#60=EDGE_LOOP('',(#110));
#61=EDGE_LOOP('',(#111));
#62=EDGE_LOOP('',(#112));
#63=CIRCLE('',#134,24.);
#64=CIRCLE('',#135,23.);
#65=CIRCLE('',#137,28.);
#66=CIRCLE('',#139,28.);
#67=CIRCLE('',#141,26.5);
#68=CIRCLE('',#143,26.5);
#69=CIRCLE('',#145,28.);
#70=CIRCLE('',#147,28.);
#71=CIRCLE('',#149,24.);
#72=CIRCLE('',#151,23.);
#73=VERTEX_POINT('',#197);
#74=VERTEX_POINT('',#199);
#75=VERTEX_POINT('',#202);
#76=VERTEX_POINT('',#205);
#77=VERTEX_POINT('',#208);
#78=VERTEX_POINT('',#211);
#79=VERTEX_POINT('',#214);
#80=VERTEX_POINT('',#217);
#81=VERTEX_POINT('',#220);
#82=VERTEX_POINT('',#223);
#83=EDGE_CURVE('',#73,#73,#63,.T.);
#84=EDGE_CURVE('',#74,#74,#64,.T.);
#85=EDGE_CURVE('',#75,#75,#65,.T.);
#86=EDGE_CURVE('',#76,#76,#66,.T.);
#87=EDGE_CURVE('',#77,#77,#67,.T.);
#88=EDGE_CURVE('',#78,#78,#68,.T.);
#89=EDGE_CURVE('',#79,#79,#69,.T.);
#90=EDGE_CURVE('',#80,#80,#70,.T.);
#91=EDGE_CURVE('',#81,#81,#71,.T.);
#92=EDGE_CURVE('',#82,#82,#72,.T.);
#93=ORIENTED_EDGE('',*,*,#83,.F.);
#94=ORIENTED_EDGE('',*,*,#84,.T.);
#95=ORIENTED_EDGE('',*,*,#83,.T.);
#96=ORIENTED_EDGE('',*,*,#85,.F.);
#97=ORIENTED_EDGE('',*,*,#85,.T.);
#98=ORIENTED_EDGE('',*,*,#86,.F.);
#99=ORIENTED_EDGE('',*,*,#86,.T.);
#100=ORIENTED_EDGE('',*,*,#87,.F.);
#101=ORIENTED_EDGE('',*,*,#87,.T.);
#102=ORIENTED_EDGE('',*,*,#88,.F.);
#103=ORIENTED_EDGE('',*,*,#88,.T.);
#104=ORIENTED_EDGE('',*,*,#89,.F.);
#105=ORIENTED_EDGE('',*,*,#89,.T.);
#106=ORIENTED_EDGE('',*,*,#90,.F.);
#107=ORIENTED_EDGE('',*,*,#90,.T.);
#108=ORIENTED_EDGE('',*,*,#91,.F.);
#109=ORIENTED_EDGE('',*,*,#91,.T.);
#110=ORIENTED_EDGE('',*,*,#92,.F.);
#111=ORIENTED_EDGE('',*,*,#92,.T.);
#112=ORIENTED_EDGE('',*,*,#84,.F.);
#113=PLANE('',#133);
#114=PLANE('',#150);
#115=ADVANCED_FACE('',(#33,#23),#113,.T.);
#116=ADVANCED_FACE('',(#34,#24),#17,.T.);
#117=ADVANCED_FACE('',(#35,#25),#15,.T.);
#118=ADVANCED_FACE('',(#36,#26),#18,.T.);
#119=ADVANCED_FACE('',(#37,#27),#19,.F.);
#120=ADVANCED_FACE('',(#38,#28),#20,.T.);
#121=ADVANCED_FACE('',(#39,#29),#16,.T.);
#122=ADVANCED_FACE('',(#40,#30),#21,.T.);
#123=ADVANCED_FACE('',(#41,#31),#114,.T.);
#124=ADVANCED_FACE('',(#42,#32),#22,.T.);
#125=CLOSED_SHELL('',(#115,#116,#117,#118,#119,#120,#121,#122,#123,#124));
#126=DATE_TIME_ROLE('creation_date');
#127=APPLIED_DATE_AND_TIME_ASSIGNMENT(#128,#126,(#240));
#128=DATE_AND_TIME(#129,#130);
#129=CALENDAR_DATE(2013,26,11);
#130=LOCAL_TIME(9,7,15.,#131);
#131=COORDINATED_UNIVERSAL_TIME_OFFSET(0,0,.BEHIND.);
#132=AXIS2_PLACEMENT_3D('placement',#195,#153,#154);
#133=AXIS2_PLACEMENT_3D('',#196,#155,#156);
#134=AXIS2_PLACEMENT_3D('',#198,#157,#158);
#135=AXIS2_PLACEMENT_3D('',#200,#159,#160);
#136=AXIS2_PLACEMENT_3D('',#201,#161,#162);
#137=AXIS2_PLACEMENT_3D('',#203,#163,#164);
#138=AXIS2_PLACEMENT_3D('',#204,#165,#166);
#139=AXIS2_PLACEMENT_3D('',#206,#167,#168);
#140=AXIS2_PLACEMENT_3D('',#207,#169,#170);
#141=AXIS2_PLACEMENT_3D('',#209,#171,#172);
#142=AXIS2_PLACEMENT_3D('',#210,#173,#174);
#143=AXIS2_PLACEMENT_3D('',#212,#175,#176);
#144=AXIS2_PLACEMENT_3D('',#213,#177,#178);
#145=AXIS2_PLACEMENT_3D('',#215,#179,#180);
#146=AXIS2_PLACEMENT_3D('',#216,#181,#182);
#147=AXIS2_PLACEMENT_3D('',#218,#183,#184);
#148=AXIS2_PLACEMENT_3D('',#219,#185,#186);
#149=AXIS2_PLACEMENT_3D('',#221,#187,#188);
#150=AXIS2_PLACEMENT_3D('',#222,#189,#190);
#151=AXIS2_PLACEMENT_3D('',#224,#191,#192);
#152=AXIS2_PLACEMENT_3D('',#225,#193,#194);
#153=DIRECTION('axis',(0.,0.,1.));
#154=DIRECTION('refdir',(1.,0.,0.));
#155=DIRECTION('center_axis',(-1.,0.,0.));
#156=DIRECTION('ref_axis',(0.,0.,1.));
#157=DIRECTION('center_axis',(1.,0.,0.));
#158=DIRECTION('ref_axis',(0.,0.,-1.));
#159=DIRECTION('center_axis',(1.,0.,0.));
#160=DIRECTION('ref_axis',(0.,0.,-1.));
#161=DIRECTION('center_axis',(1.,0.,0.));
#162=DIRECTION('ref_axis',(0.,0.,-1.));
#163=DIRECTION('center_axis',(1.,0.,0.));
#164=DIRECTION('ref_axis',(0.,0.,-1.));
#165=DIRECTION('center_axis',(1.,0.,0.));
#166=DIRECTION('ref_axis',(0.,1.,0.));
#167=DIRECTION('center_axis',(1.,0.,0.));
#168=DIRECTION('ref_axis',(0.,0.,-1.));
#169=DIRECTION('center_axis',(1.,0.,0.));
#170=DIRECTION('ref_axis',(0.,0.,-1.));
#171=DIRECTION('center_axis',(1.,0.,0.));
#172=DIRECTION('ref_axis',(0.,0.,-1.));
#173=DIRECTION('center_axis',(1.,0.,0.));
#174=DIRECTION('ref_axis',(0.,0.,-1.));
#175=DIRECTION('center_axis',(1.,0.,0.));
#176=DIRECTION('ref_axis',(0.,0.,-1.));
#177=DIRECTION('center_axis',(1.,0.,0.));
#178=DIRECTION('ref_axis',(0.,0.,-1.));
#179=DIRECTION('center_axis',(1.,0.,0.));
#180=DIRECTION('ref_axis',(0.,0.,-1.));
#181=DIRECTION('center_axis',(1.,0.,0.));
#182=DIRECTION('ref_axis',(0.,1.,0.));
#183=DIRECTION('center_axis',(1.,0.,0.));
#184=DIRECTION('ref_axis',(0.,0.,-1.));
#185=DIRECTION('center_axis',(1.,0.,0.));
#186=DIRECTION('ref_axis',(0.,0.,-1.));
#187=DIRECTION('center_axis',(1.,0.,0.));
#188=DIRECTION('ref_axis',(0.,0.,-1.));
#189=DIRECTION('center_axis',(1.,0.,0.));
#190=DIRECTION('ref_axis',(0.,0.,-1.));
#191=DIRECTION('center_axis',(1.,0.,0.));
#192=DIRECTION('ref_axis',(0.,0.,-1.));
#193=DIRECTION('center_axis',(1.,0.,0.));
#194=DIRECTION('ref_axis',(0.,0.,-1.));
#195=CARTESIAN_POINT('',(0.,0.,0.));
#196=CARTESIAN_POINT('Origin',(-8.,24.,0.));
#197=CARTESIAN_POINT('',(-8.,24.,0.));
#198=CARTESIAN_POINT('Origin',(-8.,0.,0.));
#199=CARTESIAN_POINT('',(-8.,23.,0.));
#200=CARTESIAN_POINT('Origin',(-8.,0.,0.));
#201=CARTESIAN_POINT('Origin',(-4.,0.,0.));
#202=CARTESIAN_POINT('',(-4.,28.,0.));
#203=CARTESIAN_POINT('Origin',(-4.,0.,0.));
#204=CARTESIAN_POINT('Origin',(-3.5,0.,0.));
#205=CARTESIAN_POINT('',(-3.,28.,0.));
#206=CARTESIAN_POINT('Origin',(-3.,0.,0.));
#207=CARTESIAN_POINT('Origin',(-3.,0.,0.));
#208=CARTESIAN_POINT('',(-1.5,26.5,0.));
#209=CARTESIAN_POINT('Origin',(-1.5,0.,0.));
#210=CARTESIAN_POINT('Origin',(0.,0.,0.));
#211=CARTESIAN_POINT('',(1.5,26.5,0.));
#212=CARTESIAN_POINT('Origin',(1.5,0.,0.));
#213=CARTESIAN_POINT('Origin',(3.,0.,0.));
#214=CARTESIAN_POINT('',(3.,28.,0.));
#215=CARTESIAN_POINT('Origin',(3.,0.,0.));
#216=CARTESIAN_POINT('Origin',(3.50000000000001,0.,0.));
#217=CARTESIAN_POINT('',(4.00000000000001,28.,0.));
#218=CARTESIAN_POINT('Origin',(4.00000000000001,0.,0.));
#219=CARTESIAN_POINT('Origin',(4.00000000000002,0.,0.));
#220=CARTESIAN_POINT('',(8.00000000000001,24.,0.));
#221=CARTESIAN_POINT('Origin',(8.00000000000001,0.,0.));
#222=CARTESIAN_POINT('Origin',(8.00000000000001,23.,0.));
#223=CARTESIAN_POINT('',(8.,23.,0.));
#224=CARTESIAN_POINT('Origin',(8.,0.,0.));
#225=CARTESIAN_POINT('Origin',(0.,0.,0.));
#226=UNCERTAINTY_MEASURE_WITH_UNIT(LENGTH_MEASURE(0.01),#230,
'DISTANCE_ACCURACY_VALUE',
'Maximum model space distance between geometric entities at asserted c
onnectivities');
#227=UNCERTAINTY_MEASURE_WITH_UNIT(LENGTH_MEASURE(1.E-6),#230,
'DISTANCE_ACCURACY_VALUE',
'Maximum model space distance between geometric entities at asserted c
onnectivities');
#228=(
GEOMETRIC_REPRESENTATION_CONTEXT(3)
GLOBAL_UNCERTAINTY_ASSIGNED_CONTEXT((#226))
GLOBAL_UNIT_ASSIGNED_CONTEXT((#230,#233,#231))
REPRESENTATION_CONTEXT('','3D')
);
#229=(
GEOMETRIC_REPRESENTATION_CONTEXT(3)
GLOBAL_UNCERTAINTY_ASSIGNED_CONTEXT((#227))
GLOBAL_UNIT_ASSIGNED_CONTEXT((#230,#233,#231))
REPRESENTATION_CONTEXT('','3D')
);
#230=(
LENGTH_UNIT()
NAMED_UNIT(*)
SI_UNIT(.MILLI.,.METRE.)
);
#231=(
NAMED_UNIT(*)
SI_UNIT($,.STERADIAN.)
SOLID_ANGLE_UNIT()
);
#232=DIMENSIONAL_EXPONENTS(0.,0.,0.,0.,0.,0.,0.);
#233=(
CONVERSION_BASED_UNIT('degree',#235)
NAMED_UNIT(#232)
PLANE_ANGLE_UNIT()
);
#234=(
NAMED_UNIT(*)
PLANE_ANGLE_UNIT()
SI_UNIT($,.RADIAN.)
);
#235=PLANE_ANGLE_MEASURE_WITH_UNIT(PLANE_ANGLE_MEASURE(0.01745329252),#234);
#236=SHAPE_DEFINITION_REPRESENTATION(#237,#238);
#237=PRODUCT_DEFINITION_SHAPE('',$,#240);
#238=SHAPE_REPRESENTATION('',(#132),#228);
#239=PRODUCT_DEFINITION_CONTEXT('part definition',#244,'design');
#240=PRODUCT_DEFINITION('Ring cordino D56','Solid Ring 30.56',#241,#239);
#241=PRODUCT_DEFINITION_FORMATION('',$,#246);
#242=PRODUCT_RELATED_PRODUCT_CATEGORY('Solid Ring 30.56',
'Solid Ring 30.56',(#246));
#243=APPLICATION_PROTOCOL_DEFINITION('international standard',
'automotive_design',2009,#244);
#244=APPLICATION_CONTEXT(
'Core Data for Automotive Mechanical Design Process');
#245=PRODUCT_CONTEXT('part definition',#244,'mechanical');
#246=PRODUCT('Ring cordino D56','Solid Ring 30.56',$,(#245));
#247=PRESENTATION_STYLE_ASSIGNMENT((#248));
#248=SURFACE_STYLE_USAGE(.BOTH.,#249);
#249=SURFACE_SIDE_STYLE('',(#250));
#250=SURFACE_STYLE_FILL_AREA(#251);
#251=FILL_AREA_STYLE('',(#252));
#252=FILL_AREA_STYLE_COLOUR('',#253);
#253=COLOUR_RGB('',0.898039215686275,0.898039215686275,0.898039215686275);
ENDSEC;
END-ISO-10303-21;
